0
SECTION
2
HEADER
9
$ANGDIR
70
0
9
$CHAMFERA
40
10
9
$CHAMFERB
40
10
9
$CLAYER
8
Layer_1
9
$EXTMAX
10
296.021
20
247.021
9
$EXTMIN
10
105.979
20
56.9789
9
$LIMMAX
10
420
20
297
9
$LIMMIN
10
0
20
0
9
$LTSCALE
40
10
9
$PLINEGEN
70
0
9
$TEXTSIZE
40
20
9
$GRIDUNIT
10
1
20
1
9
$SNAPUNIT
10
1
20
1
0
ENDSEC
0
SECTION
2
TABLES
0
TABLE
2
STYLE
70
1
0
STYLE
2
STANDARD
70
0
40
0
41
1
50
0
71
0
42
0.2
3
txt
4

0
ENDTAB
0
TABLE
2
LTYPE
70
14
0
LTYPE
2
CONTINUOUS
70
0
3
Solid line
72
65
73
0
40
0
0
LTYPE
2
DOT
70
0
3
............................................
72
65
73
2
40
0.25
49
0
49
-0.25
0
LTYPE
2
HIDDEN
70
0
3
_ _ _ _ _ _ _ _ _ _ _ _ _ _ _ _ _ _ _ _ _ _ 
72
65
73
2
40
0.375
49
0.25
49
-0.125
0
LTYPE
2
TSLONGDASH
70
0
3
__ __ __ __ __ __ __ __ __ __ __ __ __ __ _ 
72
65
73
2
40
1.28
49
1
49
-0.28
0
LTYPE
2
TSDASHDOT
70
0
3
______ . ______ . ______ . ______ . ______ .
72
65
73
4
40
1.28
49
1
49
-0.14
49
0
49
-0.14
0
LTYPE
2
TSCENTER
70
0
3
______ _ ______ _ ______ _ ______ _ ______ _
72
65
73
4
40
2
49
1.5
49
-0.18
49
0.14
49
-0.18
0
LTYPE
2
TSPHANTOM
70
0
3
_____ _ _ _____ _ _ _____ _ _ _____ _ _ ____
72
65
73
6
40
2.5
49
1.63
49
-0.19
49
0.15
49
-0.19
49
0.15
49
-0.19
0
LTYPE
2
DASHED
70
0
3
__ __ __ __ __ __ __ __ __ __ __ __ __ __ __
72
65
73
2
40
0.75
49
0.5
49
-0.25
0
LTYPE
2
CENTER
70
0
3
____ _ ____ _ ____ _ ____ _ ____ _ ____ _ __
72
65
73
4
40
2
49
1.25
49
-0.25
49
0.25
49
-0.25
0
LTYPE
2
PHANTOM
70
0
3
_____ _ _ _____ _ _ _____ _ _ _____ _ _ ____
72
65
73
6
40
2.5
49
1.25
49
-0.25
49
0.25
49
-0.25
49
0.25
49
-0.25
0
LTYPE
2
DASHDOT
70
0
3
__ . __ . __ . __ . __ . __ . __ . __ . __ .
72
65
73
4
40
1
49
0.5
49
-0.25
49
0
49
-0.25
0
LTYPE
2
BORDER
70
0
3
__ __ . __ __ . __ __ . __ __ . __ __ . __ _
72
65
73
6
40
1.75
49
0.5
49
-0.25
49
0.5
49
-0.25
49
0
49
-0.25
0
LTYPE
2
DIVIDE
70
0
3
__ . . __ . . __ . . __ . . __ . . __ . . __
72
65
73
6
40
1.25
49
0.5
49
-0.25
49
0
49
-0.25
49
0
49
-0.25
0
ENDTAB
0
TABLE
2
LAYER
70
3
0
LAYER
2
Layer_1
70
0
62
7
6
CONTINUOUS
0
LAYER
2
Layer_2
70
0
62
7
6
CONTINUOUS
0
LAYER
2
Layer_3
70
0
62
7
6
CONTINUOUS
0
ENDTAB
0
ENDSEC
0
SECTION
2
ENTITIES
0
POLYLINE
8
Layer_1
6
CONTINUOUS
62
7
66
1
10
0
20
0
70
128
40
0
41
0
0
VERTEX
8
Layer_1
6
CONTINUOUS
62
7
10
203.759
20
224.358
0
VERTEX
8
Layer_1
6
CONTINUOUS
62
7
10
216.134
20
225.441
0
SEQEND
0
POLYLINE
8
Layer_1
6
CONTINUOUS
62
7
66
1
10
0
20
0
70
128
40
0
41
0
0
VERTEX
8
Layer_1
6
CONTINUOUS
62
7
10
216.287
20
223.447
0
VERTEX
8
Layer_1
6
CONTINUOUS
62
7
10
203.914
20
222.364
0
SEQEND
0
POLYLINE
8
Layer_1
6
CONTINUOUS
62
7
66
1
10
0
20
0
70
128
40
0
41
0
0
VERTEX
8
Layer_1
6
CONTINUOUS
62
7
10
203.745
20
220.342
0
VERTEX
8
Layer_1
6
CONTINUOUS
62
7
10
226.81
20
222.36
0
SEQEND
0
POLYLINE
8
Layer_1
6
CONTINUOUS
62
7
66
1
10
0
20
0
70
128
40
0
41
0
0
VERTEX
8
Layer_1
6
CONTINUOUS
62
7
10
226.999
20
220.368
0
VERTEX
8
Layer_1
6
CONTINUOUS
62
7
10
203.901
20
218.348
0
SEQEND
0
POLYLINE
8
Layer_1
6
CONTINUOUS
62
7
66
1
10
0
20
0
70
128
40
0
41
0
0
VERTEX
8
Layer_1
6
CONTINUOUS
62
7
10
203.751
20
216.327
0
VERTEX
8
Layer_1
6
CONTINUOUS
62
7
10
234.484
20
219.016
0
SEQEND
0
POLYLINE
8
Layer_1
6
CONTINUOUS
62
7
66
1
10
0
20
0
70
128
40
0
41
0
0
VERTEX
8
Layer_1
6
CONTINUOUS
62
7
10
234.626
20
217.02
0
VERTEX
8
Layer_1
6
CONTINUOUS
62
7
10
203.907
20
214.333
0
SEQEND
0
POLYLINE
8
Layer_1
6
CONTINUOUS
62
7
66
1
10
0
20
0
70
128
40
0
41
0
0
VERTEX
8
Layer_1
6
CONTINUOUS
62
7
10
203.712
20
212.308
0
VERTEX
8
Layer_1
6
CONTINUOUS
62
7
10
240.616
20
215.537
0
SEQEND
0
POLYLINE
8
Layer_1
6
CONTINUOUS
62
7
66
1
10
0
20
0
70
128
40
0
41
0
0
VERTEX
8
Layer_1
6
CONTINUOUS
62
7
10
240.756
20
213.541
0
VERTEX
8
Layer_1
6
CONTINUOUS
62
7
10
203.938
20
210.32
0
SEQEND
0
POLYLINE
8
Layer_1
6
CONTINUOUS
62
7
66
1
10
0
20
0
70
128
40
0
41
0
0
VERTEX
8
Layer_1
6
CONTINUOUS
62
7
10
203.737
20
208.295
0
VERTEX
8
Layer_1
6
CONTINUOUS
62
7
10
245.751
20
211.971
0
SEQEND
0
POLYLINE
8
Layer_1
6
CONTINUOUS
62
7
66
1
10
0
20
0
70
128
40
0
41
0
0
VERTEX
8
Layer_1
6
CONTINUOUS
62
7
10
245.911
20
209.977
0
VERTEX
8
Layer_1
6
CONTINUOUS
62
7
10
203.909
20
206.302
0
SEQEND
0
POLYLINE
8
Layer_1
6
CONTINUOUS
62
7
66
1
10
0
20
0
70
128
40
0
41
0
0
VERTEX
8
Layer_1
6
CONTINUOUS
62
7
10
203.743
20
204.28
0
VERTEX
8
Layer_1
6
CONTINUOUS
62
7
10
250.158
20
208.341
0
SEQEND
0
POLYLINE
8
Layer_1
6
CONTINUOUS
62
7
66
1
10
0
20
0
70
128
40
0
41
0
0
VERTEX
8
Layer_1
6
CONTINUOUS
62
7
10
250.338
20
206.349
0
VERTEX
8
Layer_1
6
CONTINUOUS
62
7
10
203.915
20
202.288
0
SEQEND
0
POLYLINE
8
Layer_1
6
CONTINUOUS
62
7
66
1
10
0
20
0
70
128
40
0
41
0
0
VERTEX
8
Layer_1
6
CONTINUOUS
62
7
10
203.74
20
200.265
0
VERTEX
8
Layer_1
6
CONTINUOUS
62
7
10
254.029
20
204.665
0
SEQEND
0
POLYLINE
8
Layer_1
6
CONTINUOUS
62
7
66
1
10
0
20
0
70
128
40
0
41
0
0
VERTEX
8
Layer_1
6
CONTINUOUS
62
7
10
254.175
20
202.67
0
VERTEX
8
Layer_1
6
CONTINUOUS
62
7
10
203.918
20
198.273
0
SEQEND
0
POLYLINE
8
Layer_1
6
CONTINUOUS
62
7
66
1
10
0
20
0
70
128
40
0
41
0
0
VERTEX
8
Layer_1
6
CONTINUOUS
62
7
10
203.737
20
196.249
0
VERTEX
8
Layer_1
6
CONTINUOUS
62
7
10
257.405
20
200.945
0
SEQEND
0
POLYLINE
8
Layer_1
6
CONTINUOUS
62
7
66
1
10
0
20
0
70
128
40
0
41
0
0
VERTEX
8
Layer_1
6
CONTINUOUS
62
7
10
257.588
20
198.953
0
VERTEX
8
Layer_1
6
CONTINUOUS
62
7
10
203.921
20
194.258
0
SEQEND
0
POLYLINE
8
Layer_1
6
CONTINUOUS
62
7
66
1
10
0
20
0
70
128
40
0
41
0
0
VERTEX
8
Layer_1
6
CONTINUOUS
62
7
10
203.765
20
192.236
0
VERTEX
8
Layer_1
6
CONTINUOUS
62
7
10
260.409
20
197.192
0
SEQEND
0
POLYLINE
8
Layer_1
6
CONTINUOUS
62
7
66
1
10
0
20
0
70
128
40
0
41
0
0
VERTEX
8
Layer_1
6
CONTINUOUS
62
7
10
260.553
20
195.197
0
VERTEX
8
Layer_1
6
CONTINUOUS
62
7
10
203.894
20
190.24
0
SEQEND
0
POLYLINE
8
Layer_1
6
CONTINUOUS
62
7
66
1
10
0
20
0
70
128
40
0
41
0
0
VERTEX
8
Layer_1
6
CONTINUOUS
62
7
10
203.723
20
188.217
0
VERTEX
8
Layer_1
6
CONTINUOUS
62
7
10
263.025
20
193.406
0
SEQEND
0
POLYLINE
8
Layer_1
6
CONTINUOUS
62
7
66
1
10
0
20
0
70
128
40
0
41
0
0
VERTEX
8
Layer_1
6
CONTINUOUS
62
7
10
263.212
20
191.414
0
VERTEX
8
Layer_1
6
CONTINUOUS
62
7
10
203.923
20
186.227
0
SEQEND
0
POLYLINE
8
Layer_1
6
CONTINUOUS
62
7
66
1
10
0
20
0
70
128
40
0
41
0
0
VERTEX
8
Layer_1
6
CONTINUOUS
62
7
10
203.75
20
184.205
0
VERTEX
8
Layer_1
6
CONTINUOUS
62
7
10
265.351
20
189.594
0
SEQEND
0
POLYLINE
8
Layer_1
6
CONTINUOUS
62
7
66
1
10
0
20
0
70
128
40
0
41
0
0
VERTEX
8
Layer_1
6
CONTINUOUS
62
7
10
265.542
20
187.603
0
VERTEX
8
Layer_1
6
CONTINUOUS
62
7
10
203.896
20
182.21
0
SEQEND
0
POLYLINE
8
Layer_1
6
CONTINUOUS
62
7
66
1
10
0
20
0
70
128
40
0
41
0
0
VERTEX
8
Layer_1
6
CONTINUOUS
62
7
10
203.718
20
180.186
0
VERTEX
8
Layer_1
6
CONTINUOUS
62
7
10
267.396
20
185.758
0
SEQEND
0
POLYLINE
8
Layer_1
6
CONTINUOUS
62
7
66
1
10
0
20
0
70
128
40
0
41
0
0
VERTEX
8
Layer_1
6
CONTINUOUS
62
7
10
267.574
20
183.765
0
VERTEX
8
Layer_1
6
CONTINUOUS
62
7
10
203.929
20
178.197
0
SEQEND
0
POLYLINE
8
Layer_1
6
CONTINUOUS
62
7
66
1
10
0
20
0
70
128
40
0
41
0
0
VERTEX
8
Layer_1
6
CONTINUOUS
62
7
10
203.744
20
176.173
0
VERTEX
8
Layer_1
6
CONTINUOUS
62
7
10
269.142
20
181.895
0
SEQEND
0
POLYLINE
8
Layer_1
6
CONTINUOUS
62
7
66
1
10
0
20
0
70
128
40
0
41
0
0
VERTEX
8
Layer_1
6
CONTINUOUS
62
7
10
269.355
20
179.906
0
VERTEX
8
Layer_1
6
CONTINUOUS
62
7
10
203.901
20
174.18
0
SEQEND
0
POLYLINE
8
Layer_1
6
CONTINUOUS
62
7
66
1
10
0
20
0
70
128
40
0
41
0
0
VERTEX
8
Layer_1
6
CONTINUOUS
62
7
10
203.742
20
172.158
0
VERTEX
8
Layer_1
6
CONTINUOUS
62
7
10
270.667
20
178.013
0
SEQEND
0
POLYLINE
8
Layer_1
6
CONTINUOUS
62
7
66
1
10
0
20
0
70
128
40
0
41
0
0
VERTEX
8
Layer_1
6
CONTINUOUS
62
7
10
270.865
20
176.023
0
VERTEX
8
Layer_1
6
CONTINUOUS
62
7
10
203.904
20
170.164
0
SEQEND
0
POLYLINE
8
Layer_1
6
CONTINUOUS
62
7
66
1
10
0
20
0
70
128
40
0
41
0
0
VERTEX
8
Layer_1
6
CONTINUOUS
62
7
10
203.747
20
168.143
0
VERTEX
8
Layer_1
6
CONTINUOUS
62
7
10
271.965
20
174.111
0
SEQEND
0
POLYLINE
8
Layer_1
6
CONTINUOUS
62
7
66
1
10
0
20
0
70
128
40
0
41
0
0
VERTEX
8
Layer_1
6
CONTINUOUS
62
7
10
272.135
20
172.119
0
VERTEX
8
Layer_1
6
CONTINUOUS
62
7
10
203.91
20
166.15
0
SEQEND
0
POLYLINE
8
Layer_1
6
CONTINUOUS
62
7
66
1
10
0
20
0
70
128
40
0
41
0
0
VERTEX
8
Layer_1
6
CONTINUOUS
62
7
10
203.777
20
164.131
0
VERTEX
8
Layer_1
6
CONTINUOUS
62
7
10
272.992
20
170.186
0
SEQEND
0
POLYLINE
8
Layer_1
6
CONTINUOUS
62
7
66
1
10
0
20
0
70
128
40
0
41
0
0
VERTEX
8
Layer_1
6
CONTINUOUS
62
7
10
273.204
20
168.197
0
VERTEX
8
Layer_1
6
CONTINUOUS
62
7
10
203.885
20
162.132
0
SEQEND
0
POLYLINE
8
Layer_1
6
CONTINUOUS
62
7
66
1
10
0
20
0
70
128
40
0
41
0
0
VERTEX
8
Layer_1
6
CONTINUOUS
62
7
10
203.742
20
160.112
0
VERTEX
8
Layer_1
6
CONTINUOUS
62
7
10
273.814
20
166.243
0
SEQEND
0
POLYLINE
8
Layer_1
6
CONTINUOUS
62
7
66
1
10
0
20
0
70
128
40
0
41
0
0
VERTEX
8
Layer_1
6
CONTINUOUS
62
7
10
274.033
20
164.254
0
VERTEX
8
Layer_1
6
CONTINUOUS
62
7
10
203.916
20
158.12
0
SEQEND
0
POLYLINE
8
Layer_1
6
CONTINUOUS
62
7
66
1
10
0
20
0
70
128
40
0
41
0
0
VERTEX
8
Layer_1
6
CONTINUOUS
62
7
10
203.731
20
156.096
0
VERTEX
8
Layer_1
6
CONTINUOUS
62
7
10
274.488
20
162.286
0
SEQEND
0
POLYLINE
8
Layer_1
6
CONTINUOUS
62
7
66
1
10
0
20
0
70
128
40
0
41
0
0
VERTEX
8
Layer_1
6
CONTINUOUS
62
7
10
274.555
20
160.285
0
VERTEX
8
Layer_1
6
CONTINUOUS
62
7
10
203.915
20
154.104
0
SEQEND
0
POLYLINE
8
Layer_1
6
CONTINUOUS
62
7
66
1
10
0
20
0
70
128
40
0
41
0
0
VERTEX
8
Layer_1
6
CONTINUOUS
62
7
10
187.056
20
225.677
0
VERTEX
8
Layer_1
6
CONTINUOUS
62
7
10
198.22
20
224.504
0
SEQEND
0
POLYLINE
8
Layer_1
6
CONTINUOUS
62
7
66
1
10
0
20
0
70
128
40
0
41
0
0
VERTEX
8
Layer_1
6
CONTINUOUS
62
7
10
198.027
20
222.513
0
VERTEX
8
Layer_1
6
CONTINUOUS
62
7
10
186.825
20
223.691
0
SEQEND
0
POLYLINE
8
Layer_1
6
CONTINUOUS
62
7
66
1
10
0
20
0
70
128
40
0
41
0
0
VERTEX
8
Layer_1
6
CONTINUOUS
62
7
10
176.355
20
222.78
0
VERTEX
8
Layer_1
6
CONTINUOUS
62
7
10
198.241
20
220.48
0
SEQEND
0
POLYLINE
8
Layer_1
6
CONTINUOUS
62
7
66
1
10
0
20
0
70
128
40
0
41
0
0
VERTEX
8
Layer_1
6
CONTINUOUS
62
7
10
197.984
20
218.496
0
VERTEX
8
Layer_1
6
CONTINUOUS
62
7
10
176.074
20
220.798
0
SEQEND
0
POLYLINE
8
Layer_1
6
CONTINUOUS
62
7
66
1
10
0
20
0
70
128
40
0
41
0
0
VERTEX
8
Layer_1
6
CONTINUOUS
62
7
10
168.609
20
219.572
0
VERTEX
8
Layer_1
6
CONTINUOUS
62
7
10
198.209
20
216.461
0
SEQEND
0
POLYLINE
8
Layer_1
6
CONTINUOUS
62
7
66
1
10
0
20
0
70
128
40
0
41
0
0
VERTEX
8
Layer_1
6
CONTINUOUS
62
7
10
198.02
20
214.47
0
VERTEX
8
Layer_1
6
CONTINUOUS
62
7
10
168.432
20
217.58
0
SEQEND
0
POLYLINE
8
Layer_1
6
CONTINUOUS
62
7
66
1
10
0
20
0
70
128
40
0
41
0
0
VERTEX
8
Layer_1
6
CONTINUOUS
62
7
10
162.433
20
216.199
0
VERTEX
8
Layer_1
6
CONTINUOUS
62
7
10
198.179
20
212.442
0
SEQEND
0
POLYLINE
8
Layer_1
6
CONTINUOUS
62
7
66
1
10
0
20
0
70
128
40
0
41
0
0
VERTEX
8
Layer_1
6
CONTINUOUS
62
7
10
198.052
20
210.444
0
VERTEX
8
Layer_1
6
CONTINUOUS
62
7
10
162.255
20
214.207
0
SEQEND
0
POLYLINE
8
Layer_1
6
CONTINUOUS
62
7
66
1
10
0
20
0
70
128
40
0
41
0
0
VERTEX
8
Layer_1
6
CONTINUOUS
62
7
10
157.227
20
212.724
0
VERTEX
8
Layer_1
6
CONTINUOUS
62
7
10
198.192
20
208.419
0
SEQEND
0
POLYLINE
8
Layer_1
6
CONTINUOUS
62
7
66
1
10
0
20
0
70
128
40
0
41
0
0
VERTEX
8
Layer_1
6
CONTINUOUS
62
7
10
198.045
20
206.423
0
VERTEX
8
Layer_1
6
CONTINUOUS
62
7
10
157.033
20
210.734
0
SEQEND
0
POLYLINE
8
Layer_1
6
CONTINUOUS
62
7
66
1
10
0
20
0
70
128
40
0
41
0
0
VERTEX
8
Layer_1
6
CONTINUOUS
62
7
10
152.734
20
209.175
0
VERTEX
8
Layer_1
6
CONTINUOUS
62
7
10
198.245
20
204.391
0
SEQEND
0
POLYLINE
8
Layer_1
6
CONTINUOUS
62
7
66
1
10
0
20
0
70
128
40
0
41
0
0
VERTEX
8
Layer_1
6
CONTINUOUS
62
7
10
197.994
20
202.407
0
VERTEX
8
Layer_1
6
CONTINUOUS
62
7
10
152.565
20
207.181
0
SEQEND
0
POLYLINE
8
Layer_1
6
CONTINUOUS
62
7
66
1
10
0
20
0
70
128
40
0
41
0
0
VERTEX
8
Layer_1
6
CONTINUOUS
62
7
10
148.836
20
205.562
0
VERTEX
8
Layer_1
6
CONTINUOUS
62
7
10
198.213
20
200.372
0
SEQEND
0
POLYLINE
8
Layer_1
6
CONTINUOUS
62
7
66
1
10
0
20
0
70
128
40
0
41
0
0
VERTEX
8
Layer_1
6
CONTINUOUS
62
7
10
198.029
20
198.381
0
VERTEX
8
Layer_1
6
CONTINUOUS
62
7
10
148.614
20
203.574
0
SEQEND
0
POLYLINE
8
Layer_1
6
CONTINUOUS
62
7
66
1
10
0
20
0
70
128
40
0
41
0
0
VERTEX
8
Layer_1
6
CONTINUOUS
62
7
10
145.382
20
201.903
0
VERTEX
8
Layer_1
6
CONTINUOUS
62
7
10
198.168
20
196.355
0
SEQEND
0
POLYLINE
8
Layer_1
6
CONTINUOUS
62
7
66
1
10
0
20
0
70
128
40
0
41
0
0
VERTEX
8
Layer_1
6
CONTINUOUS
62
7
10
198.058
20
194.356
0
VERTEX
8
Layer_1
6
CONTINUOUS
62
7
10
145.19
20
199.912
0
SEQEND
0
POLYLINE
8
Layer_1
6
CONTINUOUS
62
7
66
1
10
0
20
0
70
128
40
0
41
0
0
VERTEX
8
Layer_1
6
CONTINUOUS
62
7
10
142.351
20
198.2
0
VERTEX
8
Layer_1
6
CONTINUOUS
62
7
10
198.22
20
192.328
0
SEQEND
0
POLYLINE
8
Layer_1
6
CONTINUOUS
62
7
66
1
10
0
20
0
70
128
40
0
41
0
0
VERTEX
8
Layer_1
6
CONTINUOUS
62
7
10
198.01
20
190.339
0
VERTEX
8
Layer_1
6
CONTINUOUS
62
7
10
142.107
20
196.214
0
SEQEND
0
POLYLINE
8
Layer_1
6
CONTINUOUS
62
7
66
1
10
0
20
0
70
128
40
0
41
0
0
VERTEX
8
Layer_1
6
CONTINUOUS
62
7
10
139.639
20
194.463
0
VERTEX
8
Layer_1
6
CONTINUOUS
62
7
10
198.228
20
188.305
0
SEQEND
0
POLYLINE
8
Layer_1
6
CONTINUOUS
62
7
66
1
10
0
20
0
70
128
40
0
41
0
0
VERTEX
8
Layer_1
6
CONTINUOUS
62
7
10
198.001
20
186.318
0
VERTEX
8
Layer_1
6
CONTINUOUS
62
7
10
139.415
20
192.475
0
SEQEND
0
POLYLINE
8
Layer_1
6
CONTINUOUS
62
7
66
1
10
0
20
0
70
128
40
0
41
0
0
VERTEX
8
Layer_1
6
CONTINUOUS
62
7
10
137.23
20
190.694
0
VERTEX
8
Layer_1
6
CONTINUOUS
62
7
10
198.112
20
184.295
0
SEQEND
0
POLYLINE
8
Layer_1
6
CONTINUOUS
62
7
66
1
10
0
20
0
70
128
40
0
41
0
0
VERTEX
8
Layer_1
6
CONTINUOUS
62
7
10
198.067
20
182.289
0
VERTEX
8
Layer_1
6
CONTINUOUS
62
7
10
137.053
20
188.701
0
SEQEND
0
POLYLINE
8
Layer_1
6
CONTINUOUS
62
7
66
1
10
0
20
0
70
128
40
0
41
0
0
VERTEX
8
Layer_1
6
CONTINUOUS
62
7
10
135.167
20
186.889
0
VERTEX
8
Layer_1
6
CONTINUOUS
62
7
10
198.225
20
180.261
0
SEQEND
0
POLYLINE
8
Layer_1
6
CONTINUOUS
62
7
66
1
10
0
20
0
70
128
40
0
41
0
0
VERTEX
8
Layer_1
6
CONTINUOUS
62
7
10
198.029
20
178.271
0
VERTEX
8
Layer_1
6
CONTINUOUS
62
7
10
134.916
20
184.904
0
SEQEND
0
POLYLINE
8
Layer_1
6
CONTINUOUS
62
7
66
1
10
0
20
0
70
128
40
0
41
0
0
VERTEX
8
Layer_1
6
CONTINUOUS
62
7
10
133.291
20
183.064
0
VERTEX
8
Layer_1
6
CONTINUOUS
62
7
10
198.224
20
176.239
0
SEQEND
0
POLYLINE
8
Layer_1
6
CONTINUOUS
62
7
66
1
10
0
20
0
70
128
40
0
41
0
0
VERTEX
8
Layer_1
6
CONTINUOUS
62
7
10
198.019
20
174.25
0
VERTEX
8
Layer_1
6
CONTINUOUS
62
7
10
133.121
20
181.071
0
SEQEND
0
POLYLINE
8
Layer_1
6
CONTINUOUS
62
7
66
1
10
0
20
0
70
128
40
0
41
0
0
VERTEX
8
Layer_1
6
CONTINUOUS
62
7
10
131.714
20
179.208
0
VERTEX
8
Layer_1
6
CONTINUOUS
62
7
10
198.232
20
172.216
0
SEQEND
0
POLYLINE
8
Layer_1
6
CONTINUOUS
62
7
66
1
10
0
20
0
70
128
40
0
41
0
0
VERTEX
8
Layer_1
6
CONTINUOUS
62
7
10
198.01
20
170.229
0
VERTEX
8
Layer_1
6
CONTINUOUS
62
7
10
131.524
20
177.217
0
SEQEND
0
POLYLINE
8
Layer_1
6
CONTINUOUS
62
7
66
1
10
0
20
0
70
128
40
0
41
0
0
VERTEX
8
Layer_1
6
CONTINUOUS
62
7
10
130.37
20
175.327
0
VERTEX
8
Layer_1
6
CONTINUOUS
62
7
10
198.196
20
168.198
0
SEQEND
0
POLYLINE
8
Layer_1
6
CONTINUOUS
62
7
66
1
10
0
20
0
70
128
40
0
41
0
0
VERTEX
8
Layer_1
6
CONTINUOUS
62
7
10
198.042
20
166.203
0
VERTEX
8
Layer_1
6
CONTINUOUS
62
7
10
130.166
20
173.337
0
SEQEND
0
POLYLINE
8
Layer_1
6
CONTINUOUS
62
7
66
1
10
0
20
0
70
128
40
0
41
0
0
VERTEX
8
Layer_1
6
CONTINUOUS
62
7
10
129.26
20
171.421
0
VERTEX
8
Layer_1
6
CONTINUOUS
62
7
10
198.238
20
164.172
0
SEQEND
0
POLYLINE
8
Layer_1
6
CONTINUOUS
62
7
66
1
10
0
20
0
70
128
40
0
41
0
0
VERTEX
8
Layer_1
6
CONTINUOUS
62
7
10
197.989
20
162.187
0
VERTEX
8
Layer_1
6
CONTINUOUS
62
7
10
129.048
20
169.433
0
SEQEND
0
POLYLINE
8
Layer_1
6
CONTINUOUS
62
7
66
1
10
0
20
0
70
128
40
0
41
0
0
VERTEX
8
Layer_1
6
CONTINUOUS
62
7
10
128.372
20
167.493
0
VERTEX
8
Layer_1
6
CONTINUOUS
62
7
10
198.143
20
160.159
0
SEQEND
0
POLYLINE
8
Layer_1
6
CONTINUOUS
62
7
66
1
10
0
20
0
70
128
40
0
41
0
0
VERTEX
8
Layer_1
6
CONTINUOUS
62
7
10
198.059
20
158.157
0
VERTEX
8
Layer_1
6
CONTINUOUS
62
7
10
128.133
20
165.507
0
SEQEND
0
POLYLINE
8
Layer_1
6
CONTINUOUS
62
7
66
1
10
0
20
0
70
128
40
0
41
0
0
VERTEX
8
Layer_1
6
CONTINUOUS
62
7
10
127.655
20
163.546
0
VERTEX
8
Layer_1
6
CONTINUOUS
62
7
10
198.16
20
156.136
0
SEQEND
0
POLYLINE
8
Layer_1
6
CONTINUOUS
62
7
66
1
10
0
20
0
70
128
40
0
41
0
0
VERTEX
8
Layer_1
6
CONTINUOUS
62
7
10
198.052
20
154.136
0
VERTEX
8
Layer_1
6
CONTINUOUS
62
7
10
127.509
20
161.55
0
SEQEND
0
ARC
8
Layer_1
6
CONTINUOUS
62
7
10
265.306
20
188.585
40
1.01
50
283.536
51
87.4262
0
ARC
8
Layer_1
6
CONTINUOUS
62
7
10
260.341
20
196.184
40
1.01
50
282.143
51
86.0994
0
ARC
8
Layer_1
6
CONTINUOUS
62
7
10
262.978
20
192.397
40
1.01
50
283.428
51
87.3057
0
ARC
8
Layer_1
6
CONTINUOUS
62
7
10
267.344
20
184.749
40
1.01
50
283.177
51
87.0395
0
ARC
8
Layer_1
6
CONTINUOUS
62
7
10
269.109
20
180.886
40
1.01
50
284.111
51
88.1274
0
ARC
8
Layer_1
6
CONTINUOUS
62
7
10
270.626
20
177.004
40
1.01
50
283.721
51
87.6393
0
ARC
8
Layer_1
6
CONTINUOUS
62
7
10
272.958
20
169.177
40
1.01
50
284.064
51
88.0653
0
ARC
8
Layer_1
6
CONTINUOUS
62
7
10
271.909
20
173.103
40
1.01
50
282.951
51
86.8144
0
ARC
8
Layer_1
6
CONTINUOUS
62
7
10
257.355
20
199.936
40
1.01
50
283.315
51
87.184
0
ARC
8
Layer_1
6
CONTINUOUS
62
7
10
253.961
20
203.657
40
1.01
50
282.186
51
86.1347
0
ARC
8
Layer_1
6
CONTINUOUS
62
7
10
250.107
20
207.332
40
1.01
50
283.223
51
87.0872
0
ARC
8
Layer_1
6
CONTINUOUS
62
7
10
245.69
20
210.963
40
1.01
50
282.652
51
86.5338
0
ARC
8
Layer_1
6
CONTINUOUS
62
7
10
240.546
20
214.529
40
1.01
50
282.039
51
86.0172
0
ARC
8
Layer_1
6
CONTINUOUS
62
7
10
234.415
20
218.008
40
1.01
50
282.068
51
86.0399
0
ARC
8
Layer_1
6
CONTINUOUS
62
7
10
226.764
20
221.351
40
1.01
50
283.463
51
87.3441
0
ARC
8
Layer_1
6
CONTINUOUS
62
7
10
216.07
20
224.433
40
1.01
50
282.443
51
86.3491
0
ARC
8
Layer_1
6
CONTINUOUS
62
7
10
204.037
20
223.377
40
1.0201
50
105.817
51
263.059
0
ARC
8
Layer_1
6
CONTINUOUS
62
7
10
204.023
20
219.36
40
1.0201
50
105.84
51
263.08
0
ARC
8
Layer_1
6
CONTINUOUS
62
7
10
204.029
20
215.346
40
1.0201
50
105.849
51
263.088
0
ARC
8
Layer_1
6
CONTINUOUS
62
7
10
204.023
20
211.337
40
1.0201
50
107.801
51
265.212
0
ARC
8
Layer_1
6
CONTINUOUS
62
7
10
204.023
20
207.316
40
1.0201
50
106.33
51
263.544
0
ARC
8
Layer_1
6
CONTINUOUS
62
7
10
204.029
20
203.301
40
1.0201
50
106.339
51
263.553
0
ARC
8
Layer_1
6
CONTINUOUS
62
7
10
204.029
20
199.287
40
1.0201
50
106.497
51
263.712
0
ARC
8
Layer_1
6
CONTINUOUS
62
7
10
204.029
20
195.272
40
1.0201
50
106.653
51
263.874
0
ARC
8
Layer_1
6
CONTINUOUS
62
7
10
204.029
20
191.251
40
1.0201
50
105.018
51
262.38
0
ARC
8
Layer_1
6
CONTINUOUS
62
7
10
204.023
20
187.242
40
1.0201
50
107.102
51
264.363
0
ARC
8
Layer_1
6
CONTINUOUS
62
7
10
204.023
20
183.222
40
1.0201
50
105.536
51
262.81
0
ARC
8
Layer_1
6
CONTINUOUS
62
7
10
204.023
20
179.213
40
1.0201
50
107.398
51
264.709
0
ARC
8
Layer_1
6
CONTINUOUS
62
7
10
204.023
20
175.192
40
1.0201
50
105.874
51
263.111
0
ARC
8
Layer_1
6
CONTINUOUS
62
7
10
204.023
20
171.178
40
1.0201
50
106.039
51
263.264
0
ARC
8
Layer_1
6
CONTINUOUS
62
7
10
204.029
20
167.163
40
1.0201
50
106.048
51
263.273
0
ARC
8
Layer_1
6
CONTINUOUS
62
7
10
204.029
20
163.142
40
1.0201
50
104.308
51
261.845
0
ARC
8
Layer_1
6
CONTINUOUS
62
7
10
204.029
20
159.133
40
1.0201
50
106.371
51
263.586
0
ARC
8
Layer_1
6
CONTINUOUS
62
7
10
204.023
20
155.119
40
1.0201
50
106.677
51
263.898
0
ARC
8
Layer_1
6
CONTINUOUS
62
7
10
197.98
20
171.238
40
1.01
50
271.678
51
75.5578
0
ARC
8
Layer_1
6
CONTINUOUS
62
7
10
197.98
20
175.259
40
1.01
50
272.193
51
76.0563
0
ARC
8
Layer_1
6
CONTINUOUS
62
7
10
197.98
20
167.211
40
1.01
50
273.491
51
77.6615
0
ARC
8
Layer_1
6
CONTINUOUS
62
7
10
197.974
20
163.197
40
1.01
50
270.838
51
74.8629
0
ARC
8
Layer_1
6
CONTINUOUS
62
7
10
197.974
20
159.164
40
1.01
50
274.826
51
80.3724
0
ARC
8
Layer_1
6
CONTINUOUS
62
7
10
197.974
20
155.143
40
1.01
50
274.441
51
79.384
0
ARC
8
Layer_1
6
CONTINUOUS
62
7
10
197.986
20
179.28
40
1.01
50
272.436
51
76.3148
0
ARC
8
Layer_1
6
CONTINUOUS
62
7
10
197.974
20
183.294
40
1.01
50
275.268
51
82.141
0
ARC
8
Layer_1
6
CONTINUOUS
62
7
10
197.974
20
187.327
40
1.01
50
271.515
51
75.4123
0
ARC
8
Layer_1
6
CONTINUOUS
62
7
10
197.974
20
191.348
40
1.01
50
272.04
51
75.9019
0
ARC
8
Layer_1
6
CONTINUOUS
62
7
10
197.98
20
195.363
40
1.01
50
274.393
51
79.2769
0
ARC
8
Layer_1
6
CONTINUOUS
62
7
10
197.98
20
199.39
40
1.01
50
272.767
51
76.6942
0
ARC
8
Layer_1
6
CONTINUOUS
62
7
10
197.98
20
203.416
40
1.01
50
270.764
51
74.8082
0
ARC
8
Layer_1
6
CONTINUOUS
62
7
10
197.98
20
207.431
40
1.01
50
273.655
51
77.9128
0
ARC
8
Layer_1
6
CONTINUOUS
62
7
10
197.98
20
211.452
40
1.01
50
274.069
51
78.6242
0
ARC
8
Layer_1
6
CONTINUOUS
62
7
10
197.974
20
215.479
40
1.01
50
272.624
51
76.5267
0
ARC
8
Layer_1
6
CONTINUOUS
62
7
10
197.974
20
219.506
40
1.01
50
270.579
51
74.6743
0
ARC
8
Layer_1
6
CONTINUOUS
62
7
10
187.14
20
224.661
40
1.0201
50
94.7402
51
251.99
0
ARC
8
Layer_1
6
CONTINUOUS
62
7
10
197.983
20
223.522
40
1.01
50
272.514
51
76.4015
0
ARC
8
Layer_1
6
CONTINUOUS
62
7
10
176.411
20
221.761
40
1.0201
50
93.1334
51
250.723
0
ARC
8
Layer_1
6
CONTINUOUS
62
7
10
168.721
20
218.558
40
1.0201
50
96.2761
51
253.564
0
ARC
8
Layer_1
6
CONTINUOUS
62
7
10
162.544
20
215.185
40
1.0201
50
96.2787
51
253.567
0
ARC
8
Layer_1
6
CONTINUOUS
62
7
10
157.33
20
211.709
40
1.0201
50
95.8139
51
253.044
0
ARC
8
Layer_1
6
CONTINUOUS
62
7
10
152.849
20
208.161
40
1.0201
50
96.5058
51
253.84
0
ARC
8
Layer_1
6
CONTINUOUS
62
7
10
148.926
20
204.546
40
1.0201
50
95.0127
51
252.239
0
ARC
8
Layer_1
6
CONTINUOUS
62
7
10
145.486
20
200.888
40
1.0201
50
95.8799
51
253.116
0
ARC
8
Layer_1
6
CONTINUOUS
62
7
10
142.428
20
197.183
40
1.0201
50
94.3542
51
251.655
0
ARC
8
Layer_1
6
CONTINUOUS
62
7
10
139.727
20
193.446
40
1.0201
50
94.9604
51
252.19
0
ARC
8
Layer_1
6
CONTINUOUS
62
7
10
137.342
20
189.68
40
1.0201
50
96.2977
51
253.589
0
ARC
8
Layer_1
6
CONTINUOUS
62
7
10
135.24
20
185.871
40
1.0201
50
94.0973
51
251.443
0
ARC
8
Layer_1
6
CONTINUOUS
62
7
10
133.406
20
182.05
40
1.0201
50
96.4527
51
253.775
0
ARC
8
Layer_1
6
CONTINUOUS
62
7
10
130.469
20
174.311
40
1.0201
50
95.542
51
252.758
0
ARC
8
Layer_1
6
CONTINUOUS
62
7
10
131.819
20
178.193
40
1.0201
50
95.925
51
253.165
0
ARC
8
Layer_1
6
CONTINUOUS
62
7
10
129.355
20
170.406
40
1.0201
50
95.3181
51
252.533
0
ARC
8
Layer_1
6
CONTINUOUS
62
7
10
128.452
20
166.476
40
1.0201
50
94.5095
51
251.787
0
ARC
8
Layer_1
6
CONTINUOUS
62
7
10
127.78
20
162.534
40
1.0201
50
97.0623
51
254.563
0
ARC
8
Layer_1
6
CONTINUOUS
62
7
10
273.784
20
165.233
40
1.01
50
284.262
51
88.3325
0
ARC
8
Layer_1
6
CONTINUOUS
62
7
10
274.39
20
161.281
40
1.01
50
279.393
51
84.4625
0
POLYLINE
8
Layer_1
6
CONTINUOUS
62
7
66
1
10
0
20
0
70
128
40
0
41
0
0
VERTEX
8
Layer_1
6
CONTINUOUS
62
7
10
203.757
20
79.6409
0
VERTEX
8
Layer_1
6
CONTINUOUS
62
7
10
216.132
20
78.5582
0
SEQEND
0
POLYLINE
8
Layer_1
6
CONTINUOUS
62
7
66
1
10
0
20
0
70
128
40
0
41
0
0
VERTEX
8
Layer_1
6
CONTINUOUS
62
7
10
216.285
20
80.5525
0
VERTEX
8
Layer_1
6
CONTINUOUS
62
7
10
203.912
20
81.635
0
SEQEND
0
POLYLINE
8
Layer_1
6
CONTINUOUS
62
7
66
1
10
0
20
0
70
128
40
0
41
0
0
VERTEX
8
Layer_1
6
CONTINUOUS
62
7
10
203.743
20
83.6574
0
VERTEX
8
Layer_1
6
CONTINUOUS
62
7
10
226.808
20
81.6395
0
SEQEND
0
POLYLINE
8
Layer_1
6
CONTINUOUS
62
7
66
1
10
0
20
0
70
128
40
0
41
0
0
VERTEX
8
Layer_1
6
CONTINUOUS
62
7
10
226.997
20
83.6306
0
VERTEX
8
Layer_1
6
CONTINUOUS
62
7
10
203.898
20
85.6515
0
SEQEND
0
POLYLINE
8
Layer_1
6
CONTINUOUS
62
7
66
1
10
0
20
0
70
128
40
0
41
0
0
VERTEX
8
Layer_1
6
CONTINUOUS
62
7
10
203.749
20
87.6722
0
VERTEX
8
Layer_1
6
CONTINUOUS
62
7
10
234.482
20
84.9834
0
SEQEND
0
POLYLINE
8
Layer_1
6
CONTINUOUS
62
7
66
1
10
0
20
0
70
128
40
0
41
0
0
VERTEX
8
Layer_1
6
CONTINUOUS
62
7
10
234.624
20
86.9786
0
VERTEX
8
Layer_1
6
CONTINUOUS
62
7
10
203.905
20
89.6662
0
SEQEND
0
POLYLINE
8
Layer_1
6
CONTINUOUS
62
7
66
1
10
0
20
0
70
128
40
0
41
0
0
VERTEX
8
Layer_1
6
CONTINUOUS
62
7
10
203.709
20
91.6909
0
VERTEX
8
Layer_1
6
CONTINUOUS
62
7
10
240.614
20
88.4622
0
SEQEND
0
POLYLINE
8
Layer_1
6
CONTINUOUS
62
7
66
1
10
0
20
0
70
128
40
0
41
0
0
VERTEX
8
Layer_1
6
CONTINUOUS
62
7
10
240.754
20
90.4576
0
VERTEX
8
Layer_1
6
CONTINUOUS
62
7
10
203.936
20
93.6787
0
SEQEND
0
POLYLINE
8
Layer_1
6
CONTINUOUS
62
7
66
1
10
0
20
0
70
128
40
0
41
0
0
VERTEX
8
Layer_1
6
CONTINUOUS
62
7
10
203.735
20
95.704
0
VERTEX
8
Layer_1
6
CONTINUOUS
62
7
10
245.749
20
92.0282
0
SEQEND
0
POLYLINE
8
Layer_1
6
CONTINUOUS
62
7
66
1
10
0
20
0
70
128
40
0
41
0
0
VERTEX
8
Layer_1
6
CONTINUOUS
62
7
10
245.909
20
94.0219
0
VERTEX
8
Layer_1
6
CONTINUOUS
62
7
10
203.907
20
97.6966
0
SEQEND
0
POLYLINE
8
Layer_1
6
CONTINUOUS
62
7
66
1
10
0
20
0
70
128
40
0
41
0
0
VERTEX
8
Layer_1
6
CONTINUOUS
62
7
10
203.74
20
99.7188
0
VERTEX
8
Layer_1
6
CONTINUOUS
62
7
10
250.156
20
95.6579
0
SEQEND
0
POLYLINE
8
Layer_1
6
CONTINUOUS
62
7
66
1
10
0
20
0
70
128
40
0
41
0
0
VERTEX
8
Layer_1
6
CONTINUOUS
62
7
10
250.336
20
97.6498
0
VERTEX
8
Layer_1
6
CONTINUOUS
62
7
10
203.913
20
101.711
0
SEQEND
0
POLYLINE
8
Layer_1
6
CONTINUOUS
62
7
66
1
10
0
20
0
70
128
40
0
41
0
0
VERTEX
8
Layer_1
6
CONTINUOUS
62
7
10
203.738
20
103.734
0
VERTEX
8
Layer_1
6
CONTINUOUS
62
7
10
254.027
20
99.3345
0
SEQEND
0
POLYLINE
8
Layer_1
6
CONTINUOUS
62
7
66
1
10
0
20
0
70
128
40
0
41
0
0
VERTEX
8
Layer_1
6
CONTINUOUS
62
7
10
254.172
20
101.329
0
VERTEX
8
Layer_1
6
CONTINUOUS
62
7
10
203.916
20
105.726
0
SEQEND
0
POLYLINE
8
Layer_1
6
CONTINUOUS
62
7
66
1
10
0
20
0
70
128
40
0
41
0
0
VERTEX
8
Layer_1
6
CONTINUOUS
62
7
10
203.735
20
107.75
0
VERTEX
8
Layer_1
6
CONTINUOUS
62
7
10
257.403
20
103.054
0
SEQEND
0
POLYLINE
8
Layer_1
6
CONTINUOUS
62
7
66
1
10
0
20
0
70
128
40
0
41
0
0
VERTEX
8
Layer_1
6
CONTINUOUS
62
7
10
257.586
20
105.046
0
VERTEX
8
Layer_1
6
CONTINUOUS
62
7
10
203.919
20
109.741
0
SEQEND
0
POLYLINE
8
Layer_1
6
CONTINUOUS
62
7
66
1
10
0
20
0
70
128
40
0
41
0
0
VERTEX
8
Layer_1
6
CONTINUOUS
62
7
10
203.763
20
111.763
0
VERTEX
8
Layer_1
6
CONTINUOUS
62
7
10
260.407
20
106.807
0
SEQEND
0
POLYLINE
8
Layer_1
6
CONTINUOUS
62
7
66
1
10
0
20
0
70
128
40
0
41
0
0
VERTEX
8
Layer_1
6
CONTINUOUS
62
7
10
260.551
20
108.802
0
VERTEX
8
Layer_1
6
CONTINUOUS
62
7
10
203.892
20
113.759
0
SEQEND
0
POLYLINE
8
Layer_1
6
CONTINUOUS
62
7
66
1
10
0
20
0
70
128
40
0
41
0
0
VERTEX
8
Layer_1
6
CONTINUOUS
62
7
10
203.721
20
115.782
0
VERTEX
8
Layer_1
6
CONTINUOUS
62
7
10
263.023
20
110.593
0
SEQEND
0
POLYLINE
8
Layer_1
6
CONTINUOUS
62
7
66
1
10
0
20
0
70
128
40
0
41
0
0
VERTEX
8
Layer_1
6
CONTINUOUS
62
7
10
263.21
20
112.585
0
VERTEX
8
Layer_1
6
CONTINUOUS
62
7
10
203.921
20
117.772
0
SEQEND
0
POLYLINE
8
Layer_1
6
CONTINUOUS
62
7
66
1
10
0
20
0
70
128
40
0
41
0
0
VERTEX
8
Layer_1
6
CONTINUOUS
62
7
10
203.748
20
119.794
0
VERTEX
8
Layer_1
6
CONTINUOUS
62
7
10
265.349
20
114.405
0
SEQEND
0
POLYLINE
8
Layer_1
6
CONTINUOUS
62
7
66
1
10
0
20
0
70
128
40
0
41
0
0
VERTEX
8
Layer_1
6
CONTINUOUS
62
7
10
265.54
20
116.396
0
VERTEX
8
Layer_1
6
CONTINUOUS
62
7
10
203.894
20
121.789
0
SEQEND
0
POLYLINE
8
Layer_1
6
CONTINUOUS
62
7
66
1
10
0
20
0
70
128
40
0
41
0
0
VERTEX
8
Layer_1
6
CONTINUOUS
62
7
10
203.716
20
123.813
0
VERTEX
8
Layer_1
6
CONTINUOUS
62
7
10
267.394
20
118.241
0
SEQEND
0
POLYLINE
8
Layer_1
6
CONTINUOUS
62
7
66
1
10
0
20
0
70
128
40
0
41
0
0
VERTEX
8
Layer_1
6
CONTINUOUS
62
7
10
267.572
20
120.234
0
VERTEX
8
Layer_1
6
CONTINUOUS
62
7
10
203.927
20
125.802
0
SEQEND
0
POLYLINE
8
Layer_1
6
CONTINUOUS
62
7
66
1
10
0
20
0
70
128
40
0
41
0
0
VERTEX
8
Layer_1
6
CONTINUOUS
62
7
10
203.742
20
127.826
0
VERTEX
8
Layer_1
6
CONTINUOUS
62
7
10
269.14
20
122.104
0
SEQEND
0
POLYLINE
8
Layer_1
6
CONTINUOUS
62
7
66
1
10
0
20
0
70
128
40
0
41
0
0
VERTEX
8
Layer_1
6
CONTINUOUS
62
7
10
269.353
20
124.093
0
VERTEX
8
Layer_1
6
CONTINUOUS
62
7
10
203.899
20
129.819
0
SEQEND
0
POLYLINE
8
Layer_1
6
CONTINUOUS
62
7
66
1
10
0
20
0
70
128
40
0
41
0
0
VERTEX
8
Layer_1
6
CONTINUOUS
62
7
10
203.74
20
131.841
0
VERTEX
8
Layer_1
6
CONTINUOUS
62
7
10
270.665
20
125.986
0
SEQEND
0
POLYLINE
8
Layer_1
6
CONTINUOUS
62
7
66
1
10
0
20
0
70
128
40
0
41
0
0
VERTEX
8
Layer_1
6
CONTINUOUS
62
7
10
270.863
20
127.976
0
VERTEX
8
Layer_1
6
CONTINUOUS
62
7
10
203.902
20
133.835
0
SEQEND
0
POLYLINE
8
Layer_1
6
CONTINUOUS
62
7
66
1
10
0
20
0
70
128
40
0
41
0
0
VERTEX
8
Layer_1
6
CONTINUOUS
62
7
10
203.745
20
135.856
0
VERTEX
8
Layer_1
6
CONTINUOUS
62
7
10
271.963
20
129.888
0
SEQEND
0
POLYLINE
8
Layer_1
6
CONTINUOUS
62
7
66
1
10
0
20
0
70
128
40
0
41
0
0
VERTEX
8
Layer_1
6
CONTINUOUS
62
7
10
272.133
20
131.88
0
VERTEX
8
Layer_1
6
CONTINUOUS
62
7
10
203.908
20
137.849
0
SEQEND
0
POLYLINE
8
Layer_1
6
CONTINUOUS
62
7
66
1
10
0
20
0
70
128
40
0
41
0
0
VERTEX
8
Layer_1
6
CONTINUOUS
62
7
10
203.775
20
139.869
0
VERTEX
8
Layer_1
6
CONTINUOUS
62
7
10
272.99
20
133.813
0
SEQEND
0
POLYLINE
8
Layer_1
6
CONTINUOUS
62
7
66
1
10
0
20
0
70
128
40
0
41
0
0
VERTEX
8
Layer_1
6
CONTINUOUS
62
7
10
273.201
20
135.802
0
VERTEX
8
Layer_1
6
CONTINUOUS
62
7
10
203.883
20
141.867
0
SEQEND
0
POLYLINE
8
Layer_1
6
CONTINUOUS
62
7
66
1
10
0
20
0
70
128
40
0
41
0
0
VERTEX
8
Layer_1
6
CONTINUOUS
62
7
10
203.74
20
143.887
0
VERTEX
8
Layer_1
6
CONTINUOUS
62
7
10
273.812
20
137.756
0
SEQEND
0
POLYLINE
8
Layer_1
6
CONTINUOUS
62
7
66
1
10
0
20
0
70
128
40
0
41
0
0
VERTEX
8
Layer_1
6
CONTINUOUS
62
7
10
274.031
20
139.745
0
VERTEX
8
Layer_1
6
CONTINUOUS
62
7
10
203.913
20
145.879
0
SEQEND
0
POLYLINE
8
Layer_1
6
CONTINUOUS
62
7
66
1
10
0
20
0
70
128
40
0
41
0
0
VERTEX
8
Layer_1
6
CONTINUOUS
62
7
10
203.729
20
147.903
0
VERTEX
8
Layer_1
6
CONTINUOUS
62
7
10
274.486
20
141.713
0
SEQEND
0
POLYLINE
8
Layer_1
6
CONTINUOUS
62
7
66
1
10
0
20
0
70
128
40
0
41
0
0
VERTEX
8
Layer_1
6
CONTINUOUS
62
7
10
274.553
20
143.714
0
VERTEX
8
Layer_1
6
CONTINUOUS
62
7
10
203.913
20
149.895
0
SEQEND
0
POLYLINE
8
Layer_1
6
CONTINUOUS
62
7
66
1
10
0
20
0
70
128
40
0
41
0
0
VERTEX
8
Layer_1
6
CONTINUOUS
62
7
10
187.054
20
78.3217
0
VERTEX
8
Layer_1
6
CONTINUOUS
62
7
10
198.218
20
79.4951
0
SEQEND
0
POLYLINE
8
Layer_1
6
CONTINUOUS
62
7
66
1
10
0
20
0
70
128
40
0
41
0
0
VERTEX
8
Layer_1
6
CONTINUOUS
62
7
10
198.025
20
81.4858
0
VERTEX
8
Layer_1
6
CONTINUOUS
62
7
10
186.823
20
80.3085
0
SEQEND
0
POLYLINE
8
Layer_1
6
CONTINUOUS
62
7
66
1
10
0
20
0
70
128
40
0
41
0
0
VERTEX
8
Layer_1
6
CONTINUOUS
62
7
10
176.353
20
81.2191
0
VERTEX
8
Layer_1
6
CONTINUOUS
62
7
10
198.239
20
83.5194
0
SEQEND
0
POLYLINE
8
Layer_1
6
CONTINUOUS
62
7
66
1
10
0
20
0
70
128
40
0
41
0
0
VERTEX
8
Layer_1
6
CONTINUOUS
62
7
10
197.982
20
85.5034
0
VERTEX
8
Layer_1
6
CONTINUOUS
62
7
10
176.072
20
83.2006
0
SEQEND
0
POLYLINE
8
Layer_1
6
CONTINUOUS
62
7
66
1
10
0
20
0
70
128
40
0
41
0
0
VERTEX
8
Layer_1
6
CONTINUOUS
62
7
10
168.607
20
84.427
0
VERTEX
8
Layer_1
6
CONTINUOUS
62
7
10
198.207
20
87.5381
0
SEQEND
0
POLYLINE
8
Layer_1
6
CONTINUOUS
62
7
66
1
10
0
20
0
70
128
40
0
41
0
0
VERTEX
8
Layer_1
6
CONTINUOUS
62
7
10
198.018
20
89.5292
0
VERTEX
8
Layer_1
6
CONTINUOUS
62
7
10
168.43
20
86.4194
0
SEQEND
0
POLYLINE
8
Layer_1
6
CONTINUOUS
62
7
66
1
10
0
20
0
70
128
40
0
41
0
0
VERTEX
8
Layer_1
6
CONTINUOUS
62
7
10
162.43
20
87.7998
0
VERTEX
8
Layer_1
6
CONTINUOUS
62
7
10
198.177
20
91.557
0
SEQEND
0
POLYLINE
8
Layer_1
6
CONTINUOUS
62
7
66
1
10
0
20
0
70
128
40
0
41
0
0
VERTEX
8
Layer_1
6
CONTINUOUS
62
7
10
198.05
20
93.5546
0
VERTEX
8
Layer_1
6
CONTINUOUS
62
7
10
162.253
20
89.7922
0
SEQEND
0
POLYLINE
8
Layer_1
6
CONTINUOUS
62
7
66
1
10
0
20
0
70
128
40
0
41
0
0
VERTEX
8
Layer_1
6
CONTINUOUS
62
7
10
157.225
20
91.2747
0
VERTEX
8
Layer_1
6
CONTINUOUS
62
7
10
198.19
20
95.5803
0
SEQEND
0
POLYLINE
8
Layer_1
6
CONTINUOUS
62
7
66
1
10
0
20
0
70
128
40
0
41
0
0
VERTEX
8
Layer_1
6
CONTINUOUS
62
7
10
198.042
20
97.5758
0
VERTEX
8
Layer_1
6
CONTINUOUS
62
7
10
157.031
20
93.2653
0
SEQEND
0
POLYLINE
8
Layer_1
6
CONTINUOUS
62
7
66
1
10
0
20
0
70
128
40
0
41
0
0
VERTEX
8
Layer_1
6
CONTINUOUS
62
7
10
152.732
20
94.8245
0
VERTEX
8
Layer_1
6
CONTINUOUS
62
7
10
198.243
20
99.6079
0
SEQEND
0
POLYLINE
8
Layer_1
6
CONTINUOUS
62
7
66
1
10
0
20
0
70
128
40
0
41
0
0
VERTEX
8
Layer_1
6
CONTINUOUS
62
7
10
197.992
20
101.593
0
VERTEX
8
Layer_1
6
CONTINUOUS
62
7
10
152.563
20
96.8178
0
SEQEND
0
POLYLINE
8
Layer_1
6
CONTINUOUS
62
7
66
1
10
0
20
0
70
128
40
0
41
0
0
VERTEX
8
Layer_1
6
CONTINUOUS
62
7
10
148.834
20
98.4369
0
VERTEX
8
Layer_1
6
CONTINUOUS
62
7
10
198.211
20
103.627
0
SEQEND
0
POLYLINE
8
Layer_1
6
CONTINUOUS
62
7
66
1
10
0
20
0
70
128
40
0
41
0
0
VERTEX
8
Layer_1
6
CONTINUOUS
62
7
10
198.027
20
105.618
0
VERTEX
8
Layer_1
6
CONTINUOUS
62
7
10
148.612
20
100.425
0
SEQEND
0
POLYLINE
8
Layer_1
6
CONTINUOUS
62
7
66
1
10
0
20
0
70
128
40
0
41
0
0
VERTEX
8
Layer_1
6
CONTINUOUS
62
7
10
145.379
20
102.096
0
VERTEX
8
Layer_1
6
CONTINUOUS
62
7
10
198.166
20
107.644
0
SEQEND
0
POLYLINE
8
Layer_1
6
CONTINUOUS
62
7
66
1
10
0
20
0
70
128
40
0
41
0
0
VERTEX
8
Layer_1
6
CONTINUOUS
62
7
10
198.055
20
109.643
0
VERTEX
8
Layer_1
6
CONTINUOUS
62
7
10
145.188
20
104.087
0
SEQEND
0
POLYLINE
8
Layer_1
6
CONTINUOUS
62
7
66
1
10
0
20
0
70
128
40
0
41
0
0
VERTEX
8
Layer_1
6
CONTINUOUS
62
7
10
142.349
20
105.799
0
VERTEX
8
Layer_1
6
CONTINUOUS
62
7
10
198.218
20
111.671
0
SEQEND
0
POLYLINE
8
Layer_1
6
CONTINUOUS
62
7
66
1
10
0
20
0
70
128
40
0
41
0
0
VERTEX
8
Layer_1
6
CONTINUOUS
62
7
10
198.008
20
113.66
0
VERTEX
8
Layer_1
6
CONTINUOUS
62
7
10
142.105
20
107.785
0
SEQEND
0
POLYLINE
8
Layer_1
6
CONTINUOUS
62
7
66
1
10
0
20
0
70
128
40
0
41
0
0
VERTEX
8
Layer_1
6
CONTINUOUS
62
7
10
139.637
20
109.536
0
VERTEX
8
Layer_1
6
CONTINUOUS
62
7
10
198.226
20
115.694
0
SEQEND
0
POLYLINE
8
Layer_1
6
CONTINUOUS
62
7
66
1
10
0
20
0
70
128
40
0
41
0
0
VERTEX
8
Layer_1
6
CONTINUOUS
62
7
10
197.999
20
117.681
0
VERTEX
8
Layer_1
6
CONTINUOUS
62
7
10
139.413
20
111.524
0
SEQEND
0
POLYLINE
8
Layer_1
6
CONTINUOUS
62
7
66
1
10
0
20
0
70
128
40
0
41
0
0
VERTEX
8
Layer_1
6
CONTINUOUS
62
7
10
137.228
20
113.305
0
VERTEX
8
Layer_1
6
CONTINUOUS
62
7
10
198.11
20
119.704
0
SEQEND
0
POLYLINE
8
Layer_1
6
CONTINUOUS
62
7
66
1
10
0
20
0
70
128
40
0
41
0
0
VERTEX
8
Layer_1
6
CONTINUOUS
62
7
10
198.065
20
121.71
0
VERTEX
8
Layer_1
6
CONTINUOUS
62
7
10
137.051
20
115.298
0
SEQEND
0
POLYLINE
8
Layer_1
6
CONTINUOUS
62
7
66
1
10
0
20
0
70
128
40
0
41
0
0
VERTEX
8
Layer_1
6
CONTINUOUS
62
7
10
135.165
20
117.11
0
VERTEX
8
Layer_1
6
CONTINUOUS
62
7
10
198.223
20
123.738
0
SEQEND
0
POLYLINE
8
Layer_1
6
CONTINUOUS
62
7
66
1
10
0
20
0
70
128
40
0
41
0
0
VERTEX
8
Layer_1
6
CONTINUOUS
62
7
10
198.027
20
125.728
0
VERTEX
8
Layer_1
6
CONTINUOUS
62
7
10
134.914
20
119.095
0
SEQEND
0
POLYLINE
8
Layer_1
6
CONTINUOUS
62
7
66
1
10
0
20
0
70
128
40
0
41
0
0
VERTEX
8
Layer_1
6
CONTINUOUS
62
7
10
133.289
20
120.935
0
VERTEX
8
Layer_1
6
CONTINUOUS
62
7
10
198.221
20
127.76
0
SEQEND
0
POLYLINE
8
Layer_1
6
CONTINUOUS
62
7
66
1
10
0
20
0
70
128
40
0
41
0
0
VERTEX
8
Layer_1
6
CONTINUOUS
62
7
10
198.017
20
129.749
0
VERTEX
8
Layer_1
6
CONTINUOUS
62
7
10
133.118
20
122.928
0
SEQEND
0
POLYLINE
8
Layer_1
6
CONTINUOUS
62
7
66
1
10
0
20
0
70
128
40
0
41
0
0
VERTEX
8
Layer_1
6
CONTINUOUS
62
7
10
131.712
20
124.791
0
VERTEX
8
Layer_1
6
CONTINUOUS
62
7
10
198.23
20
131.783
0
SEQEND
0
POLYLINE
8
Layer_1
6
CONTINUOUS
62
7
66
1
10
0
20
0
70
128
40
0
41
0
0
VERTEX
8
Layer_1
6
CONTINUOUS
62
7
10
198.008
20
133.77
0
VERTEX
8
Layer_1
6
CONTINUOUS
62
7
10
131.522
20
126.783
0
SEQEND
0
POLYLINE
8
Layer_1
6
CONTINUOUS
62
7
66
1
10
0
20
0
70
128
40
0
41
0
0
VERTEX
8
Layer_1
6
CONTINUOUS
62
7
10
130.368
20
128.672
0
VERTEX
8
Layer_1
6
CONTINUOUS
62
7
10
198.194
20
135.801
0
SEQEND
0
POLYLINE
8
Layer_1
6
CONTINUOUS
62
7
66
1
10
0
20
0
70
128
40
0
41
0
0
VERTEX
8
Layer_1
6
CONTINUOUS
62
7
10
198.04
20
137.796
0
VERTEX
8
Layer_1
6
CONTINUOUS
62
7
10
130.164
20
130.662
0
SEQEND
0
POLYLINE
8
Layer_1
6
CONTINUOUS
62
7
66
1
10
0
20
0
70
128
40
0
41
0
0
VERTEX
8
Layer_1
6
CONTINUOUS
62
7
10
129.258
20
132.578
0
VERTEX
8
Layer_1
6
CONTINUOUS
62
7
10
198.236
20
139.828
0
SEQEND
0
POLYLINE
8
Layer_1
6
CONTINUOUS
62
7
66
1
10
0
20
0
70
128
40
0
41
0
0
VERTEX
8
Layer_1
6
CONTINUOUS
62
7
10
197.987
20
141.812
0
VERTEX
8
Layer_1
6
CONTINUOUS
62
7
10
129.046
20
134.566
0
SEQEND
0
POLYLINE
8
Layer_1
6
CONTINUOUS
62
7
66
1
10
0
20
0
70
128
40
0
41
0
0
VERTEX
8
Layer_1
6
CONTINUOUS
62
7
10
128.37
20
136.506
0
VERTEX
8
Layer_1
6
CONTINUOUS
62
7
10
198.141
20
143.84
0
SEQEND
0
POLYLINE
8
Layer_1
6
CONTINUOUS
62
7
66
1
10
0
20
0
70
128
40
0
41
0
0
VERTEX
8
Layer_1
6
CONTINUOUS
62
7
10
198.057
20
145.842
0
VERTEX
8
Layer_1
6
CONTINUOUS
62
7
10
128.131
20
138.492
0
SEQEND
0
POLYLINE
8
Layer_1
6
CONTINUOUS
62
7
66
1
10
0
20
0
70
128
40
0
41
0
0
VERTEX
8
Layer_1
6
CONTINUOUS
62
7
10
127.653
20
140.453
0
VERTEX
8
Layer_1
6
CONTINUOUS
62
7
10
198.158
20
147.863
0
SEQEND
0
POLYLINE
8
Layer_1
6
CONTINUOUS
62
7
66
1
10
0
20
0
70
128
40
0
41
0
0
VERTEX
8
Layer_1
6
CONTINUOUS
62
7
10
198.05
20
149.863
0
VERTEX
8
Layer_1
6
CONTINUOUS
62
7
10
127.507
20
142.449
0
SEQEND
0
ARC
8
Layer_1
6
CONTINUOUS
62
7
10
265.304
20
115.414
40
1.01
50
272.574
51
76.4638
0
ARC
8
Layer_1
6
CONTINUOUS
62
7
10
260.339
20
107.815
40
1.01
50
273.901
51
77.8574
0
ARC
8
Layer_1
6
CONTINUOUS
62
7
10
262.976
20
111.602
40
1.01
50
272.694
51
76.5723
0
ARC
8
Layer_1
6
CONTINUOUS
62
7
10
267.342
20
119.25
40
1.01
50
272.96
51
76.8233
0
ARC
8
Layer_1
6
CONTINUOUS
62
7
10
269.107
20
123.113
40
1.01
50
271.873
51
75.889
0
ARC
8
Layer_1
6
CONTINUOUS
62
7
10
270.624
20
126.995
40
1.01
50
272.361
51
76.2792
0
ARC
8
Layer_1
6
CONTINUOUS
62
7
10
272.956
20
134.822
40
1.01
50
271.935
51
75.9362
0
ARC
8
Layer_1
6
CONTINUOUS
62
7
10
271.907
20
130.896
40
1.01
50
273.186
51
77.0487
0
ARC
8
Layer_1
6
CONTINUOUS
62
7
10
257.353
20
104.063
40
1.01
50
272.816
51
76.6851
0
ARC
8
Layer_1
6
CONTINUOUS
62
7
10
253.959
20
100.342
40
1.01
50
273.865
51
77.8137
0
ARC
8
Layer_1
6
CONTINUOUS
62
7
10
250.105
20
96.6666
40
1.01
50
272.913
51
76.7771
0
ARC
8
Layer_1
6
CONTINUOUS
62
7
10
245.688
20
93.0364
40
1.01
50
273.466
51
77.348
0
ARC
8
Layer_1
6
CONTINUOUS
62
7
10
240.544
20
89.4698
40
1.01
50
273.983
51
77.9609
0
ARC
8
Layer_1
6
CONTINUOUS
62
7
10
234.412
20
85.991
40
1.01
50
273.96
51
77.9321
0
ARC
8
Layer_1
6
CONTINUOUS
62
7
10
226.761
20
82.6484
40
1.01
50
272.656
51
76.5373
0
ARC
8
Layer_1
6
CONTINUOUS
62
7
10
216.068
20
79.5662
40
1.01
50
273.651
51
77.5573
0
ARC
8
Layer_1
6
CONTINUOUS
62
7
10
204.035
20
80.6224
40
1.0201
50
96.9409
51
254.183
0
ARC
8
Layer_1
6
CONTINUOUS
62
7
10
204.021
20
84.6388
40
1.0201
50
96.9203
51
254.16
0
ARC
8
Layer_1
6
CONTINUOUS
62
7
10
204.027
20
88.6535
40
1.0201
50
96.9119
51
254.151
0
ARC
8
Layer_1
6
CONTINUOUS
62
7
10
204.021
20
92.6622
40
1.0201
50
94.7876
51
252.199
0
ARC
8
Layer_1
6
CONTINUOUS
62
7
10
204.021
20
96.6829
40
1.0201
50
96.4555
51
253.67
0
ARC
8
Layer_1
6
CONTINUOUS
62
7
10
204.027
20
100.698
40
1.0201
50
96.4468
51
253.661
0
ARC
8
Layer_1
6
CONTINUOUS
62
7
10
204.027
20
104.712
40
1.0201
50
96.2875
51
253.503
0
ARC
8
Layer_1
6
CONTINUOUS
62
7
10
204.027
20
108.727
40
1.0201
50
96.1261
51
253.347
0
ARC
8
Layer_1
6
CONTINUOUS
62
7
10
204.027
20
112.748
40
1.0201
50
97.6203
51
254.982
0
ARC
8
Layer_1
6
CONTINUOUS
62
7
10
204.021
20
116.757
40
1.0201
50
95.6366
51
252.898
0
ARC
8
Layer_1
6
CONTINUOUS
62
7
10
204.021
20
120.777
40
1.0201
50
97.1902
51
254.464
0
ARC
8
Layer_1
6
CONTINUOUS
62
7
10
204.021
20
124.786
40
1.0201
50
95.2909
51
252.602
0
ARC
8
Layer_1
6
CONTINUOUS
62
7
10
204.021
20
128.807
40
1.0201
50
96.8893
51
254.126
0
ARC
8
Layer_1
6
CONTINUOUS
62
7
10
204.021
20
132.821
40
1.0201
50
96.736
51
253.961
0
ARC
8
Layer_1
6
CONTINUOUS
62
7
10
204.027
20
136.836
40
1.0201
50
96.7274
51
253.952
0
ARC
8
Layer_1
6
CONTINUOUS
62
7
10
204.027
20
140.857
40
1.0201
50
98.1545
51
255.692
0
ARC
8
Layer_1
6
CONTINUOUS
62
7
10
204.027
20
144.866
40
1.0201
50
96.4145
51
253.629
0
ARC
8
Layer_1
6
CONTINUOUS
62
7
10
204.021
20
148.88
40
1.0201
50
96.1019
51
253.323
0
ARC
8
Layer_1
6
CONTINUOUS
62
7
10
197.978
20
132.761
40
1.01
50
284.442
51
88.3216
0
ARC
8
Layer_1
6
CONTINUOUS
62
7
10
197.978
20
128.74
40
1.01
50
283.944
51
87.807
0
ARC
8
Layer_1
6
CONTINUOUS
62
7
10
197.978
20
136.788
40
1.01
50
282.338
51
86.5088
0
ARC
8
Layer_1
6
CONTINUOUS
62
7
10
197.972
20
140.802
40
1.01
50
285.137
51
89.162
0
ARC
8
Layer_1
6
CONTINUOUS
62
7
10
197.972
20
144.835
40
1.01
50
279.628
51
85.1738
0
ARC
8
Layer_1
6
CONTINUOUS
62
7
10
197.972
20
148.856
40
1.01
50
280.616
51
85.5589
0
ARC
8
Layer_1
6
CONTINUOUS
62
7
10
197.984
20
124.719
40
1.01
50
283.685
51
87.564
0
ARC
8
Layer_1
6
CONTINUOUS
62
7
10
197.972
20
120.705
40
1.01
50
277.859
51
84.7321
0
ARC
8
Layer_1
6
CONTINUOUS
62
7
10
197.972
20
116.672
40
1.01
50
284.588
51
88.4845
0
ARC
8
Layer_1
6
CONTINUOUS
62
7
10
197.972
20
112.651
40
1.01
50
284.098
51
87.9596
0
ARC
8
Layer_1
6
CONTINUOUS
62
7
10
197.978
20
108.636
40
1.01
50
280.723
51
85.6071
0
ARC
8
Layer_1
6
CONTINUOUS
62
7
10
197.978
20
104.609
40
1.01
50
283.306
51
87.233
0
ARC
8
Layer_1
6
CONTINUOUS
62
7
10
197.978
20
100.583
40
1.01
50
285.192
51
89.2356
0
ARC
8
Layer_1
6
CONTINUOUS
62
7
10
197.978
20
96.5679
40
1.01
50
282.087
51
86.3453
0
ARC
8
Layer_1
6
CONTINUOUS
62
7
10
197.978
20
92.5471
40
1.01
50
281.376
51
85.9305
0
ARC
8
Layer_1
6
CONTINUOUS
62
7
10
197.972
20
88.5203
40
1.01
50
283.473
51
87.3755
0
ARC
8
Layer_1
6
CONTINUOUS
62
7
10
197.972
20
84.4935
40
1.01
50
285.326
51
89.4211
0
ARC
8
Layer_1
6
CONTINUOUS
62
7
10
187.138
20
79.3384
40
1.0201
50
108.01
51
265.26
0
ARC
8
Layer_1
6
CONTINUOUS
62
7
10
197.98
20
80.4768
40
1.01
50
283.598
51
87.4857
0
ARC
8
Layer_1
6
CONTINUOUS
62
7
10
176.409
20
82.2377
40
1.0201
50
109.277
51
266.867
0
ARC
8
Layer_1
6
CONTINUOUS
62
7
10
168.718
20
85.4409
40
1.0201
50
106.436
51
263.724
0
ARC
8
Layer_1
6
CONTINUOUS
62
7
10
162.542
20
88.8138
40
1.0201
50
106.433
51
263.721
0
ARC
8
Layer_1
6
CONTINUOUS
62
7
10
157.328
20
92.2896
40
1.0201
50
106.956
51
264.186
0
ARC
8
Layer_1
6
CONTINUOUS
62
7
10
152.847
20
95.838
40
1.0201
50
106.16
51
263.494
0
ARC
8
Layer_1
6
CONTINUOUS
62
7
10
148.923
20
99.4531
40
1.0201
50
107.761
51
264.987
0
ARC
8
Layer_1
6
CONTINUOUS
62
7
10
145.484
20
103.111
40
1.0201
50
106.884
51
264.12
0
ARC
8
Layer_1
6
CONTINUOUS
62
7
10
142.426
20
106.816
40
1.0201
50
108.345
51
265.646
0
ARC
8
Layer_1
6
CONTINUOUS
62
7
10
139.725
20
110.553
40
1.0201
50
107.81
51
265.04
0
ARC
8
Layer_1
6
CONTINUOUS
62
7
10
137.339
20
114.319
40
1.0201
50
106.411
51
263.702
0
ARC
8
Layer_1
6
CONTINUOUS
62
7
10
135.238
20
118.128
40
1.0201
50
108.557
51
265.903
0
ARC
8
Layer_1
6
CONTINUOUS
62
7
10
133.403
20
121.949
40
1.0201
50
106.225
51
263.547
0
ARC
8
Layer_1
6
CONTINUOUS
62
7
10
130.467
20
129.688
40
1.0201
50
107.242
51
264.458
0
ARC
8
Layer_1
6
CONTINUOUS
62
7
10
131.817
20
125.806
40
1.0201
50
106.835
51
264.075
0
ARC
8
Layer_1
6
CONTINUOUS
62
7
10
129.352
20
133.593
40
1.0201
50
107.467
51
264.682
0
ARC
8
Layer_1
6
CONTINUOUS
62
7
10
128.45
20
137.523
40
1.0201
50
108.213
51
265.49
0
ARC
8
Layer_1
6
CONTINUOUS
62
7
10
127.778
20
141.465
40
1.0201
50
105.437
51
262.938
0
ARC
8
Layer_1
6
CONTINUOUS
62
7
10
273.782
20
138.766
40
1.01
50
271.668
51
75.7375
0
ARC
8
Layer_1
6
CONTINUOUS
62
7
10
274.388
20
142.718
40
1.01
50
275.537
51
80.6074
0
CIRCLE
8
Layer_1
6
CONTINUOUS
62
7
10
201
20
152
40
95.0211
0
ENDSEC
0
EOF
